ISO-10303-21;
HEADER;
FILE_DESCRIPTION (( 'STEP AP214' ),
    '1' );
FILE_NAME ('BS1ISOK320324 FULLVAC.STEP',
    '2024-05-22T14:06:19',
    ( '' ),
    ( '' ),
    'SwSTEP 2.0',
    'SolidWorks 2017',
    '' );
FILE_SCHEMA (( 'AUTOMOTIVE_DESIGN' ));
ENDSEC;

DATA;
#1 = CARTESIAN_POINT ( 'NONE',  ( 0.0000000000000000000, 0.0000000000000000000, 16.99999999999999600 ) ) ;
#2 = AXIS2_PLACEMENT_3D ( 'NONE', #288, #225, #85 ) ;
#3 = FILL_AREA_STYLE_COLOUR ( '', #57 ) ;
#4 = VERTEX_POINT ( 'NONE', #336 ) ;
#5 = ORIENTED_EDGE ( 'NONE', *, *, #213, .T. ) ;
#6 =( LENGTH_UNIT ( ) NAMED_UNIT ( * ) SI_UNIT ( .MILLI., .METRE. ) );
#7 = DIRECTION ( 'NONE',  ( 0.0000000000000000000, 0.0000000000000000000, 1.000000000000000000 ) ) ;
#8 = VERTEX_POINT ( 'NONE', #47 ) ;
#9 = ORIENTED_EDGE ( 'NONE', *, *, #222, .T. ) ;
#10 = EDGE_LOOP ( 'NONE', ( #278 ) ) ;
#11 =( GEOMETRIC_REPRESENTATION_CONTEXT ( 3 ) GLOBAL_UNCERTAINTY_ASSIGNED_CONTEXT ( ( #112 ) ) GLOBAL_UNIT_ASSIGNED_CONTEXT ( ( #62, #61, #86 ) ) REPRESENTATION_CONTEXT ( 'NONE', 'WORKASPACE' ) );
#12 = CYLINDRICAL_SURFACE ( 'NONE', #273, 159.0900000000000000 ) ;
#13 = ORIENTED_EDGE ( 'NONE', *, *, #284, .T. ) ;
#14 = DIRECTION ( 'NONE',  ( 0.0000000000000000000, 0.0000000000000000000, 1.000000000000000000 ) ) ;
#15 = CARTESIAN_POINT ( 'NONE',  ( 0.0000000000000000000, 0.0000000000000000000, 0.0000000000000000000 ) ) ;
#16 = EDGE_CURVE ( 'NONE', #121, #121, #145, .T. ) ;
#17 = FACE_OUTER_BOUND ( 'NONE', #159, .T. ) ;
#18 = FACE_OUTER_BOUND ( 'NONE', #177, .T. ) ;
#19 = AXIS2_PLACEMENT_3D ( 'NONE', #196, #60, #283 ) ;
#20 = ORIENTED_EDGE ( 'NONE', *, *, #328, .F. ) ;
#21 = AXIS2_PLACEMENT_3D ( 'NONE', #231, #227, #349 ) ;
#22 = FACE_OUTER_BOUND ( 'NONE', #287, .T. ) ;
#23 = EDGE_LOOP ( 'NONE', ( #292 ) ) ;
#24 = CARTESIAN_POINT ( 'NONE',  ( 0.0000000000000000000, 0.0000000000000000000, 0.0000000000000000000 ) ) ;
#25 = VERTEX_POINT ( 'NONE', #367 ) ;
#26 = VERTEX_POINT ( 'NONE', #189 ) ;
#27 = FACE_OUTER_BOUND ( 'NONE', #250, .T. ) ;
#28 = ORIENTED_EDGE ( 'NONE', *, *, #303, .T. ) ;
#29 = DIRECTION ( 'NONE',  ( 0.0000000000000000000, 0.0000000000000000000, 1.000000000000000000 ) ) ;
#30 = SURFACE_STYLE_USAGE ( .BOTH. , #34 ) ;
#31 = EDGE_LOOP ( 'NONE', ( #167 ) ) ;
#32 = APPLICATION_PROTOCOL_DEFINITION ( 'draft international standard', 'automotive_design', 1998, #173 ) ;
#33 = DIRECTION ( 'NONE',  ( 0.0000000000000000000, 0.0000000000000000000, 1.000000000000000000 ) ) ;
#34 = SURFACE_SIDE_STYLE ('',( #195 ) ) ;
#35 = FACE_OUTER_BOUND ( 'NONE', #205, .T. ) ;
#36 = CARTESIAN_POINT ( 'NONE',  ( 0.0000000000000000000, 0.0000000000000000000, 4.807417596432746800 ) ) ;
#37 = ADVANCED_FACE ( 'NONE', ( #27, #169 ), #217, .T. ) ;
#38 = DIRECTION ( 'NONE',  ( -0.0000000000000000000, 0.0000000000000000000, -1.000000000000000000 ) ) ;
#39 = EDGE_LOOP ( 'NONE', ( #300 ) ) ;
#40 = EDGE_LOOP ( 'NONE', ( #135 ) ) ;
#41 = CARTESIAN_POINT ( 'NONE',  ( 0.0000000000000000000, 0.0000000000000000000, 0.0000000000000000000 ) ) ;
#42 = ADVANCED_FACE ( 'NONE', ( #18, #69 ), #316, .F. ) ;
#43 = DIRECTION ( 'NONE',  ( 1.000000000000000000, 0.0000000000000000000, 0.0000000000000000000 ) ) ;
#44 = FACE_OUTER_BOUND ( 'NONE', #48, .T. ) ;
#45 = EDGE_LOOP ( 'NONE', ( #101 ) ) ;
#46 = ADVANCED_FACE ( 'NONE', ( #204, #22 ), #93, .T. ) ;
#47 = CARTESIAN_POINT ( 'NONE',  ( 159.0900000000000000, 0.0000000000000000000, 8.499999999999996400 ) ) ;
#48 = EDGE_LOOP ( 'NONE', ( #309 ) ) ;
#49 = DIRECTION ( 'NONE',  ( 1.000000000000000000, 0.0000000000000000000, 0.0000000000000000000 ) ) ;
#50 = AXIS2_PLACEMENT_3D ( 'NONE', #340, #52, #251 ) ;
#51 = DIRECTION ( 'NONE',  ( 1.000000000000000000, 0.0000000000000000000, 0.0000000000000000000 ) ) ;
#52 = DIRECTION ( 'NONE',  ( 0.0000000000000000000, 0.0000000000000000000, 1.000000000000000000 ) ) ;
#53 = EDGE_CURVE ( 'NONE', #343, #343, #338, .T. ) ;
#54 = CYLINDRICAL_SURFACE ( 'NONE', #342, 184.8199999999999900 ) ;
#55 = AXIS2_PLACEMENT_3D ( 'NONE', #345, #274, #346 ) ;
#56 = FACE_BOUND ( 'NONE', #254, .T. ) ;
#57 = COLOUR_RGB ( '',0.7921568627450980000, 0.8196078431372548800, 0.9333333333333333500 ) ;
#58 = CLOSED_SHELL ( 'NONE', ( #37, #354, #122, #260, #65, #133, #46, #125, #42, #296, #233, #305, #183, #149, #263, #358 ) ) ;
#59 =( NAMED_UNIT ( * ) SI_UNIT ( $, .STERADIAN. ) SOLID_ANGLE_UNIT ( ) );
#60 = DIRECTION ( 'NONE',  ( 0.0000000000000000000, 0.0000000000000000000, 1.000000000000000000 ) ) ;
#61 =( NAMED_UNIT ( * ) PLANE_ANGLE_UNIT ( ) SI_UNIT ( $, .RADIAN. ) );
#62 =( LENGTH_UNIT ( ) NAMED_UNIT ( * ) SI_UNIT ( .MILLI., .METRE. ) );
#63 = DIRECTION ( 'NONE',  ( 1.000000000000000000, 0.0000000000000000000, 0.0000000000000000000 ) ) ;
#64 = FACE_OUTER_BOUND ( 'NONE', #223, .T. ) ;
#65 = ADVANCED_FACE ( 'NONE', ( #249, #366 ), #119, .T. ) ;
#66 = ORIENTED_EDGE ( 'NONE', *, *, #53, .F. ) ;
#67 = AXIS2_PLACEMENT_3D ( 'NONE', #107, #311, #51 ) ;
#68 = CIRCLE ( 'NONE', #350, 175.0000000000000300 ) ;
#69 = FACE_OUTER_BOUND ( 'NONE', #10, .T. ) ;
#70 = DIRECTION ( 'NONE',  ( -1.000000000000000000, 0.0000000000000000000, 0.0000000000000000000 ) ) ;
#71 = CIRCLE ( 'NONE', #241, 175.0000000000000300 ) ;
#72 = ORIENTED_EDGE ( 'NONE', *, *, #118, .T. ) ;
#73 = EDGE_CURVE ( 'NONE', #301, #301, #245, .T. ) ;
#74 = FACE_BOUND ( 'NONE', #39, .T. ) ;
#75 = EDGE_LOOP ( 'NONE', ( #9 ) ) ;
#76 = CARTESIAN_POINT ( 'NONE',  ( 184.0699999999999900, 0.0000000000000000000, 16.99999999999999600 ) ) ;
#77 = FILL_AREA_STYLE_COLOUR ( '', #243 ) ;
#78 = TOROIDAL_SURFACE ( 'NONE', #202, 184.6199999999999800, 0.2000000000000040900 ) ;
#79 = CARTESIAN_POINT ( 'NONE',  ( 184.8199999999999900, 0.0000000000000000000, 0.7499999999999962300 ) ) ;
#80 = DIRECTION ( 'NONE',  ( 1.000000000000000000, 0.0000000000000000000, 0.0000000000000000000 ) ) ;
#81 = PRESENTATION_LAYER_ASSIGNMENT (  '', '', ( #335 ) ) ;
#82 = CYLINDRICAL_SURFACE ( 'NONE', #289, 175.0000000000000300 ) ;
#83 = ORIENTED_EDGE ( 'NONE', *, *, #339, .F. ) ;
#84 = CARTESIAN_POINT ( 'NONE',  ( 0.0000000000000000000, 0.0000000000000000000, 7.499999999999997300 ) ) ;
#85 = DIRECTION ( 'NONE',  ( 1.000000000000000000, 0.0000000000000000000, -0.0000000000000000000 ) ) ;
#86 =( NAMED_UNIT ( * ) SI_UNIT ( $, .STERADIAN. ) SOLID_ANGLE_UNIT ( ) );
#87 = ORIENTED_EDGE ( 'NONE', *, *, #118, .F. ) ;
#88 = PRODUCT_DEFINITION ( 'UNKNOWN', '', #356, #280 ) ;
#89 = APPLICATION_PROTOCOL_DEFINITION ( 'draft international standard', 'automotive_design', 1998, #282 ) ;
#90 = CARTESIAN_POINT ( 'NONE',  ( 0.0000000000000000000, 0.0000000000000000000, 8.499999999999996400 ) ) ;
#91 = DIRECTION ( 'NONE',  ( 0.0000000000000000000, 0.0000000000000000000, 1.000000000000000000 ) ) ;
#92 = FACE_OUTER_BOUND ( 'NONE', #23, .T. ) ;
#93 = CYLINDRICAL_SURFACE ( 'NONE', #319, 184.8199999999999900 ) ;
#94 = DIRECTION ( 'NONE',  ( 0.0000000000000000000, 0.0000000000000000000, 1.000000000000000000 ) ) ;
#95 = DIRECTION ( 'NONE',  ( 1.000000000000000000, 0.0000000000000000000, 0.0000000000000000000 ) ) ;
#96 = CARTESIAN_POINT ( 'NONE',  ( 0.0000000000000000000, 0.0000000000000000000, 17.00000000000000000 ) ) ;
#97 = DIRECTION ( 'NONE',  ( 0.0000000000000000000, 0.0000000000000000000, 1.000000000000000000 ) ) ;
#98 = DIRECTION ( 'NONE',  ( 1.000000000000000000, 0.0000000000000000000, 0.0000000000000000000 ) ) ;
#99 = DIRECTION ( 'NONE',  ( 1.000000000000000000, 0.0000000000000000000, 0.0000000000000000000 ) ) ;
#100 = FACE_OUTER_BOUND ( 'NONE', #110, .T. ) ;
#101 = ORIENTED_EDGE ( 'NONE', *, *, #139, .F. ) ;
#102 = MANIFOLD_SOLID_BREP ( 'Révolution1', #58 ) ;
#103 = CARTESIAN_POINT ( 'NONE',  ( 162.5000000000000000, 0.0000000000000000000, 17.00000000000000000 ) ) ;
#104 = CARTESIAN_POINT ( 'NONE',  ( 0.0000000000000000000, 0.0000000000000000000, 0.0000000000000000000 ) ) ;
#105 = ORIENTED_EDGE ( 'NONE', *, *, #126, .T. ) ;
#106 = AXIS2_PLACEMENT_3D ( 'NONE', #256, #170, #147 ) ;
#107 = CARTESIAN_POINT ( 'NONE',  ( 0.0000000000000000000, 0.0000000000000000000, -2.902412913979226200E-014 ) ) ;
#108 = EDGE_CURVE ( 'NONE', #239, #239, #68, .T. ) ;
#109 = CONICAL_SURFACE ( 'NONE', #368, 184.8199999999999900, 0.7853981633974488300 ) ;
#110 = EDGE_LOOP ( 'NONE', ( #218 ) ) ;
#111 = DIRECTION ( 'NONE',  ( 0.0000000000000000000, 0.0000000000000000000, 1.000000000000000000 ) ) ;
#112 = UNCERTAINTY_MEASURE_WITH_UNIT (LENGTH_MEASURE( 1.000000000000000100E-005 ), #62, 'distance_accuracy_value', 'NONE');
#113 = DIRECTION ( 'NONE',  ( 1.000000000000000000, 0.0000000000000000000, 0.0000000000000000000 ) ) ;
#114 = EDGE_LOOP ( 'NONE', ( #5 ) ) ;
#115 = EDGE_LOOP ( 'NONE', ( #66 ) ) ;
#116 = SURFACE_SIDE_STYLE ('',( #298 ) ) ;
#117 = DIRECTION ( 'NONE',  ( -0.0000000000000000000, -0.0000000000000000000, -1.000000000000000000 ) ) ;
#118 = EDGE_CURVE ( 'NONE', #26, #26, #148, .T. ) ;
#119 = PLANE ( 'NONE',  #2 ) ;
#120 = DIRECTION ( 'NONE',  ( 0.0000000000000000000, 0.0000000000000000000, 1.000000000000000000 ) ) ;
#121 = VERTEX_POINT ( 'NONE', #214 ) ;
#122 = ADVANCED_FACE ( 'NONE', ( #360, #166 ), #226, .T. ) ;
#123 = EDGE_LOOP ( 'NONE', ( #193 ) ) ;
#124 = DIRECTION ( 'NONE',  ( 0.0000000000000000000, 0.0000000000000000000, 1.000000000000000000 ) ) ;
#125 = ADVANCED_FACE ( 'NONE', ( #131, #236 ), #141, .T. ) ;
#126 = EDGE_CURVE ( 'NONE', #221, #221, #244, .T. ) ;
#127 = PRESENTATION_STYLE_ASSIGNMENT (( #30 ) ) ;
#128 = EDGE_LOOP ( 'NONE', ( #72 ) ) ;
#129 = AXIS2_PLACEMENT_3D ( 'NONE', #180, #14, #98 ) ;
#130 = DIRECTION ( 'NONE',  ( 0.0000000000000000000, 0.0000000000000000000, 1.000000000000000000 ) ) ;
#131 = FACE_OUTER_BOUND ( 'NONE', #75, .T. ) ;
#132 = CARTESIAN_POINT ( 'NONE',  ( 0.0000000000000000000, 0.0000000000000000000, 16.99999999999999300 ) ) ;
#133 = ADVANCED_FACE ( 'NONE', ( #64, #56 ), #144, .T. ) ;
#134 = MECHANICAL_DESIGN_GEOMETRIC_PRESENTATION_REPRESENTATION (  '', ( #335 ), #11 ) ;
#135 = ORIENTED_EDGE ( 'NONE', *, *, #303, .F. ) ;
#136 = EDGE_LOOP ( 'NONE', ( #344 ) ) ;
#137 =( LENGTH_UNIT ( ) NAMED_UNIT ( * ) SI_UNIT ( .MILLI., .METRE. ) );
#138 = CARTESIAN_POINT ( 'NONE',  ( 0.0000000000000000000, 0.0000000000000000000, 0.7499999999999962300 ) ) ;
#139 = EDGE_CURVE ( 'NONE', #308, #308, #362, .T. ) ;
#140 = DIRECTION ( 'NONE',  ( 1.000000000000000000, 0.0000000000000000000, 0.0000000000000000000 ) ) ;
#141 = TOROIDAL_SURFACE ( 'NONE', #19, 184.6199999999999800, 0.2000000000000040900 ) ;
#142 = CARTESIAN_POINT ( 'NONE',  ( 0.0000000000000000000, 0.0000000000000000000, 0.7499999999999962300 ) ) ;
#143 = DIRECTION ( 'NONE',  ( 1.000000000000000000, 0.0000000000000000000, 0.0000000000000000000 ) ) ;
#144 = CONICAL_SURFACE ( 'NONE', #322, 184.0699999999999900, 0.7853981633974482800 ) ;
#145 = CIRCLE ( 'NONE', #238, 184.6348148148148000 ) ;
#146 = DIRECTION ( 'NONE',  ( 1.000000000000000000, 0.0000000000000000000, -0.0000000000000000000 ) ) ;
#147 = DIRECTION ( 'NONE',  ( 1.000000000000000000, 0.0000000000000000000, 0.0000000000000000000 ) ) ;
#148 = CIRCLE ( 'NONE', #372, 162.5000000000000000 ) ;
#149 = ADVANCED_FACE ( 'NONE', ( #44, #320 ), #12, .F. ) ;
#150 = VERTEX_POINT ( 'NONE', #306 ) ;
#151 = EDGE_LOOP ( 'NONE', ( #83 ) ) ;
#152 = DIRECTION ( 'NONE',  ( 1.000000000000000000, 0.0000000000000000000, 0.0000000000000000000 ) ) ;
#153 = EDGE_CURVE ( 'NONE', #203, #203, #200, .T. ) ;
#154 = CYLINDRICAL_SURFACE ( 'NONE', #220, 162.5000000000000000 ) ;
#155 = ORIENTED_EDGE ( 'NONE', *, *, #126, .F. ) ;
#156 = CARTESIAN_POINT ( 'NONE',  ( 0.0000000000000000000, 0.0000000000000000000, 4.807417596432746800 ) ) ;
#157 = FACE_BOUND ( 'NONE', #326, .T. ) ;
#158 = CARTESIAN_POINT ( 'NONE',  ( 159.0900000000000000, 0.0000000000000000000, 8.499999999999996400 ) ) ;
#159 = EDGE_LOOP ( 'NONE', ( #13 ) ) ;
#160 = EDGE_LOOP ( 'NONE', ( #353 ) ) ;
#161 = CARTESIAN_POINT ( 'NONE',  ( 184.0699999999999900, 0.0000000000000000000, -3.682512925036070900E-015 ) ) ;
#162 =( NAMED_UNIT ( * ) PLANE_ANGLE_UNIT ( ) SI_UNIT ( $, .RADIAN. ) );
#163 = FACE_OUTER_BOUND ( 'NONE', #246, .T. ) ;
#164 = UNCERTAINTY_MEASURE_WITH_UNIT (LENGTH_MEASURE( 1.000000000000000100E-005 ), #6, 'distance_accuracy_value', 'NONE');
#165 = CARTESIAN_POINT ( 'NONE',  ( 0.0000000000000000000, 0.0000000000000000000, 0.0000000000000000000 ) ) ;
#166 = FACE_BOUND ( 'NONE', #224, .T. ) ;
#167 = ORIENTED_EDGE ( 'NONE', *, *, #153, .F. ) ;
#168 = AXIS2_PLACEMENT_3D ( 'NONE', #327, #38, #70 ) ;
#169 = FACE_BOUND ( 'NONE', #268, .T. ) ;
#170 = DIRECTION ( 'NONE',  ( 0.0000000000000000000, 0.0000000000000000000, 1.000000000000000000 ) ) ;
#171 = STYLED_ITEM ( 'NONE', ( #127 ), #102 ) ;
#172 = PRODUCT_CONTEXT ( 'NONE', #173, 'mechanical' ) ;
#173 = APPLICATION_CONTEXT ( 'automotive_design' ) ;
#174 = AXIS2_PLACEMENT_3D ( 'NONE', #96, #290, #357 ) ;
#175 = FACE_OUTER_BOUND ( 'NONE', #128, .T. ) ;
#176 = ORIENTED_EDGE ( 'NONE', *, *, #328, .T. ) ;
#177 = EDGE_LOOP ( 'NONE', ( #182 ) ) ;
#178 = DIRECTION ( 'NONE',  ( 0.0000000000000000000, 0.0000000000000000000, 1.000000000000000000 ) ) ;
#179 = EDGE_LOOP ( 'NONE', ( #265 ) ) ;
#180 = CARTESIAN_POINT ( 'NONE',  ( 0.0000000000000000000, 0.0000000000000000000, 8.499999999999996400 ) ) ;
#181 = VERTEX_POINT ( 'NONE', #103 ) ;
#182 = ORIENTED_EDGE ( 'NONE', *, *, #16, .T. ) ;
#183 = ADVANCED_FACE ( 'NONE', ( #157, #365 ), #325, .T. ) ;
#184 = DIRECTION ( 'NONE',  ( 1.000000000000000000, 0.0000000000000000000, -0.0000000000000000000 ) ) ;
#185 = AXIS2_PLACEMENT_3D ( 'NONE', #206, #94, #95 ) ;
#186 = CARTESIAN_POINT ( 'NONE',  ( 175.0000000000000300, 0.0000000000000000000, 14.99999999999999600 ) ) ;
#187 = DIRECTION ( 'NONE',  ( 0.0000000000000000000, 0.0000000000000000000, 1.000000000000000000 ) ) ;
#188 = DIRECTION ( 'NONE',  ( 1.000000000000000000, 0.0000000000000000000, 0.0000000000000000000 ) ) ;
#189 = CARTESIAN_POINT ( 'NONE',  ( 162.5000000000000000, 0.0000000000000000000, 8.499999999999996400 ) ) ;
#190 = PRESENTATION_LAYER_ASSIGNMENT (  '', '', ( #171 ) ) ;
#191 = VERTEX_POINT ( 'NONE', #219 ) ;
#192 = FACE_OUTER_BOUND ( 'NONE', #114, .T. ) ;
#193 = ORIENTED_EDGE ( 'NONE', *, *, #284, .F. ) ;
#194 = AXIS2_PLACEMENT_3D ( 'NONE', #15, #209, #99 ) ;
#195 = SURFACE_STYLE_FILL_AREA ( #355 ) ;
#196 = CARTESIAN_POINT ( 'NONE',  ( 0.0000000000000000000, 0.0000000000000000000, 10.19258240356724700 ) ) ;
#197 = DIRECTION ( 'NONE',  ( -1.000000000000000000, 0.0000000000000000000, 0.0000000000000000000 ) ) ;
#198 = AXIS2_PLACEMENT_3D ( 'NONE', #142, #310, #140 ) ;
#199 = DIRECTION ( 'NONE',  ( 1.000000000000000000, 0.0000000000000000000, 0.0000000000000000000 ) ) ;
#200 = CIRCLE ( 'NONE', #253, 184.8199999999999900 ) ;
#201 = AXIS2_PLACEMENT_3D ( 'NONE', #318, #323, #146 ) ;
#202 = AXIS2_PLACEMENT_3D ( 'NONE', #156, #210, #49 ) ;
#203 = VERTEX_POINT ( 'NONE', #248 ) ;
#204 = FACE_OUTER_BOUND ( 'NONE', #261, .T. ) ;
#205 = EDGE_LOOP ( 'NONE', ( #87 ) ) ;
#206 = CARTESIAN_POINT ( 'NONE',  ( 0.0000000000000000000, 0.0000000000000000000, 9.993131855154855400 ) ) ;
#207 = ORIENTED_EDGE ( 'NONE', *, *, #213, .F. ) ;
#208 = AXIS2_PLACEMENT_3D ( 'NONE', #329, #7, #152 ) ;
#209 = DIRECTION ( 'NONE',  ( 0.0000000000000000000, 0.0000000000000000000, 1.000000000000000000 ) ) ;
#210 = DIRECTION ( 'NONE',  ( 0.0000000000000000000, 0.0000000000000000000, 1.000000000000000000 ) ) ;
#211 = CIRCLE ( 'NONE', #50, 184.8199999999999900 ) ;
#212 = EDGE_LOOP ( 'NONE', ( #155 ) ) ;
#213 = EDGE_CURVE ( 'NONE', #181, #181, #252, .T. ) ;
#214 = CARTESIAN_POINT ( 'NONE',  ( 184.6348148148148000, 0.0000000000000000000, 5.006868144845136600 ) ) ;
#215 =( NAMED_UNIT ( * ) SI_UNIT ( $, .STERADIAN. ) SOLID_ANGLE_UNIT ( ) );
#216 = FACE_OUTER_BOUND ( 'NONE', #347, .T. ) ;
#217 = PLANE ( 'NONE',  #55 ) ;
#218 = ORIENTED_EDGE ( 'NONE', *, *, #153, .T. ) ;
#219 = CARTESIAN_POINT ( 'NONE',  ( 159.0900000000000000, 0.0000000000000000000, -2.902412913979226200E-014 ) ) ;
#220 = AXIS2_PLACEMENT_3D ( 'NONE', #24, #272, #80 ) ;
#221 = VERTEX_POINT ( 'NONE', #269 ) ;
#222 = EDGE_CURVE ( 'NONE', #150, #150, #258, .T. ) ;
#223 = EDGE_LOOP ( 'NONE', ( #176 ) ) ;
#224 = EDGE_LOOP ( 'NONE', ( #277 ) ) ;
#225 = DIRECTION ( 'NONE',  ( 0.0000000000000000000, 0.0000000000000000000, 1.000000000000000000 ) ) ;
#226 = PLANE ( 'NONE',  #201 ) ;
#227 = DIRECTION ( 'NONE',  ( 0.0000000000000000000, 0.0000000000000000000, 1.000000000000000000 ) ) ;
#228 = CIRCLE ( 'NONE', #129, 159.0900000000000000 ) ;
#229 = ORIENTED_EDGE ( 'NONE', *, *, #73, .F. ) ;
#230 = MECHANICAL_DESIGN_GEOMETRIC_PRESENTATION_REPRESENTATION (  '', ( #171 ), #332 ) ;
#231 = CARTESIAN_POINT ( 'NONE',  ( 0.0000000000000000000, 0.0000000000000000000, 16.99999999999999600 ) ) ;
#232 =( NAMED_UNIT ( * ) PLANE_ANGLE_UNIT ( ) SI_UNIT ( $, .RADIAN. ) );
#233 = ADVANCED_FACE ( 'NONE', ( #163, #291 ), #54, .T. ) ;
#234 = AXIS2_PLACEMENT_3D ( 'NONE', #364, #130, #371 ) ;
#235 = DIRECTION ( 'NONE',  ( 1.000000000000000000, 0.0000000000000000000, 0.0000000000000000000 ) ) ;
#236 = FACE_OUTER_BOUND ( 'NONE', #45, .T. ) ;
#237 = DIRECTION ( 'NONE',  ( 0.0000000000000000000, 0.0000000000000000000, 1.000000000000000000 ) ) ;
#238 = AXIS2_PLACEMENT_3D ( 'NONE', #313, #111, #143 ) ;
#239 = VERTEX_POINT ( 'NONE', #186 ) ;
#240 = ORIENTED_EDGE ( 'NONE', *, *, #139, .T. ) ;
#241 = AXIS2_PLACEMENT_3D ( 'NONE', #132, #97, #43 ) ;
#242 = PRODUCT_RELATED_PRODUCT_CATEGORY ( 'part', '', ( #317 ) ) ;
#243 = COLOUR_RGB ( '',0.7921568627450980000, 0.8196078431372548800, 0.9333333333333333500 ) ;
#244 = CIRCLE ( 'NONE', #106, 182.5000000000000000 ) ;
#245 = CIRCLE ( 'NONE', #21, 184.0699999999999900 ) ;
#246 = EDGE_LOOP ( 'NONE', ( #374 ) ) ;
#247 = EDGE_CURVE ( 'NONE', #4, #4, #71, .T. ) ;
#248 = CARTESIAN_POINT ( 'NONE',  ( 184.8199999999999900, 0.0000000000000000000, 4.807417596432746800 ) ) ;
#249 = FACE_OUTER_BOUND ( 'NONE', #136, .T. ) ;
#250 = EDGE_LOOP ( 'NONE', ( #334 ) ) ;
#251 = DIRECTION ( 'NONE',  ( 1.000000000000000000, 0.0000000000000000000, 0.0000000000000000000 ) ) ;
#252 = CIRCLE ( 'NONE', #174, 162.5000000000000000 ) ;
#253 = AXIS2_PLACEMENT_3D ( 'NONE', #36, #237, #262 ) ;
#254 = EDGE_LOOP ( 'NONE', ( #229 ) ) ;
#255 = CARTESIAN_POINT ( 'NONE',  ( 0.0000000000000000000, 0.0000000000000000000, 0.0000000000000000000 ) ) ;
#256 = CARTESIAN_POINT ( 'NONE',  ( 0.0000000000000000000, 0.0000000000000000000, 14.99999999999999500 ) ) ;
#257 = DIRECTION ( 'NONE',  ( 1.000000000000000000, 0.0000000000000000000, 0.0000000000000000000 ) ) ;
#258 = CIRCLE ( 'NONE', #185, 184.6348148148148000 ) ;
#259 = ADVANCED_BREP_SHAPE_REPRESENTATION ( 'BS1ISOK320324 FULLVAC', ( #102, #363 ), #314 ) ;
#260 = ADVANCED_FACE ( 'NONE', ( #17, #271 ), #276, .F. ) ;
#261 = EDGE_LOOP ( 'NONE', ( #240 ) ) ;
#262 = DIRECTION ( 'NONE',  ( 1.000000000000000000, 0.0000000000000000000, 0.0000000000000000000 ) ) ;
#263 = ADVANCED_FACE ( 'NONE', ( #175, #74 ), #299, .T. ) ;
#264 = CIRCLE ( 'NONE', #198, 184.8199999999999900 ) ;
#265 = ORIENTED_EDGE ( 'NONE', *, *, #53, .T. ) ;
#266 = AXIS2_PLACEMENT_3D ( 'NONE', #158, #331, #184 ) ;
#267 = PRESENTATION_STYLE_ASSIGNMENT (( #324 ) ) ;
#268 = EDGE_LOOP ( 'NONE', ( #207 ) ) ;
#269 = CARTESIAN_POINT ( 'NONE',  ( 182.5000000000000000, 0.0000000000000000000, 14.99999999999999500 ) ) ;
#270 = AXIS2_PLACEMENT_3D ( 'NONE', #84, #29, #199 ) ;
#271 = FACE_OUTER_BOUND ( 'NONE', #212, .T. ) ;
#272 = DIRECTION ( 'NONE',  ( 0.0000000000000000000, 0.0000000000000000000, 1.000000000000000000 ) ) ;
#273 = AXIS2_PLACEMENT_3D ( 'NONE', #41, #293, #361 ) ;
#274 = DIRECTION ( 'NONE',  ( 0.0000000000000000000, 0.0000000000000000000, 1.000000000000000000 ) ) ;
#275 = EDGE_CURVE ( 'NONE', #8, #8, #228, .T. ) ;
#276 = CYLINDRICAL_SURFACE ( 'NONE', #194, 182.5000000000000000 ) ;
#277 = ORIENTED_EDGE ( 'NONE', *, *, #108, .F. ) ;
#278 = ORIENTED_EDGE ( 'NONE', *, *, #222, .F. ) ;
#279 = CARTESIAN_POINT ( 'NONE',  ( 0.0000000000000000000, 0.0000000000000000000, -3.682512925036070900E-015 ) ) ;
#280 = PRODUCT_DEFINITION_CONTEXT ( 'detailed design', #282, 'design' ) ;
#281 = CARTESIAN_POINT ( 'NONE',  ( 0.0000000000000000000, 0.0000000000000000000, 14.99999999999999600 ) ) ;
#282 = APPLICATION_CONTEXT ( 'automotive_design' ) ;
#283 = DIRECTION ( 'NONE',  ( 1.000000000000000000, 0.0000000000000000000, 0.0000000000000000000 ) ) ;
#284 = EDGE_CURVE ( 'NONE', #337, #337, #352, .T. ) ;
#285 = FACE_OUTER_BOUND ( 'NONE', #151, .T. ) ;
#286 = DIRECTION ( 'NONE',  ( 0.0000000000000000000, 0.0000000000000000000, 1.000000000000000000 ) ) ;
#287 = EDGE_LOOP ( 'NONE', ( #20 ) ) ;
#288 = CARTESIAN_POINT ( 'NONE',  ( 182.5000000000000000, 0.0000000000000000000, 16.99999999999999600 ) ) ;
#289 = AXIS2_PLACEMENT_3D ( 'NONE', #165, #341, #307 ) ;
#290 = DIRECTION ( 'NONE',  ( 0.0000000000000000000, 0.0000000000000000000, 1.000000000000000000 ) ) ;
#291 = FACE_OUTER_BOUND ( 'NONE', #31, .T. ) ;
#292 = ORIENTED_EDGE ( 'NONE', *, *, #247, .F. ) ;
#293 = DIRECTION ( 'NONE',  ( 0.0000000000000000000, 0.0000000000000000000, 1.000000000000000000 ) ) ;
#294 = CARTESIAN_POINT ( 'NONE',  ( 0.0000000000000000000, 0.0000000000000000000, 0.0000000000000000000 ) ) ;
#295 = AXIS2_PLACEMENT_3D ( 'NONE', #279, #33, #257 ) ;
#296 = ADVANCED_FACE ( 'NONE', ( #100, #315 ), #78, .T. ) ;
#297 = VERTEX_POINT ( 'NONE', #79 ) ;
#298 = SURFACE_STYLE_FILL_AREA ( #373 ) ;
#299 = PLANE ( 'NONE',  #266 ) ;
#300 = ORIENTED_EDGE ( 'NONE', *, *, #275, .F. ) ;
#301 = VERTEX_POINT ( 'NONE', #76 ) ;
#302 = EDGE_LOOP ( 'NONE', ( #105 ) ) ;
#303 = EDGE_CURVE ( 'NONE', #191, #191, #370, .T. ) ;
#304 = CARTESIAN_POINT ( 'NONE',  ( 184.8199999999999900, 0.0000000000000000000, 10.19258240356724700 ) ) ;
#305 = ADVANCED_FACE ( 'NONE', ( #359, #285 ), #109, .T. ) ;
#306 = CARTESIAN_POINT ( 'NONE',  ( 184.6348148148148000, 0.0000000000000000000, 9.993131855154855400 ) ) ;
#307 = DIRECTION ( 'NONE',  ( 1.000000000000000000, 0.0000000000000000000, 0.0000000000000000000 ) ) ;
#308 = VERTEX_POINT ( 'NONE', #304 ) ;
#309 = ORIENTED_EDGE ( 'NONE', *, *, #275, .T. ) ;
#310 = DIRECTION ( 'NONE',  ( 0.0000000000000000000, 0.0000000000000000000, 1.000000000000000000 ) ) ;
#311 = DIRECTION ( 'NONE',  ( 0.0000000000000000000, 0.0000000000000000000, 1.000000000000000000 ) ) ;
#312 = PRODUCT_DEFINITION_SHAPE ( 'NONE', 'NONE',  #88 ) ;
#313 = CARTESIAN_POINT ( 'NONE',  ( 0.0000000000000000000, 0.0000000000000000000, 5.006868144845136600 ) ) ;
#314 =( GEOMETRIC_REPRESENTATION_CONTEXT ( 3 ) GLOBAL_UNCERTAINTY_ASSIGNED_CONTEXT ( ( #330 ) ) GLOBAL_UNIT_ASSIGNED_CONTEXT ( ( #137, #162, #215 ) ) REPRESENTATION_CONTEXT ( 'NONE', 'WORKASPACE' ) );
#315 = FACE_OUTER_BOUND ( 'NONE', #160, .T. ) ;
#316 = TOROIDAL_SURFACE ( 'NONE', #270, 184.8199999999999900, 2.499999999999996400 ) ;
#317 = PRODUCT ( 'BS1ISOK320324 FULLVAC', 'BS1ISOK320324 FULLVAC', '', ( #172 ) ) ;
#318 = CARTESIAN_POINT ( 'NONE',  ( 175.0000000000000300, 0.0000000000000000000, 14.99999999999999600 ) ) ;
#319 = AXIS2_PLACEMENT_3D ( 'NONE', #255, #91, #321 ) ;
#320 = FACE_OUTER_BOUND ( 'NONE', #40, .T. ) ;
#321 = DIRECTION ( 'NONE',  ( 1.000000000000000000, 0.0000000000000000000, 0.0000000000000000000 ) ) ;
#322 = AXIS2_PLACEMENT_3D ( 'NONE', #1, #117, #197 ) ;
#323 = DIRECTION ( 'NONE',  ( 0.0000000000000000000, 0.0000000000000000000, 1.000000000000000000 ) ) ;
#324 = SURFACE_STYLE_USAGE ( .BOTH. , #116 ) ;
#325 = PLANE ( 'NONE',  #168 ) ;
#326 = EDGE_LOOP ( 'NONE', ( #28 ) ) ;
#327 = CARTESIAN_POINT ( 'NONE',  ( 184.0699999999999900, 0.0000000000000000000, -1.635332103241416800E-014 ) ) ;
#328 = EDGE_CURVE ( 'NONE', #25, #25, #211, .T. ) ;
#329 = CARTESIAN_POINT ( 'NONE',  ( 0.0000000000000000000, 0.0000000000000000000, 10.19258240356724700 ) ) ;
#330 = UNCERTAINTY_MEASURE_WITH_UNIT (LENGTH_MEASURE( 1.000000000000000100E-005 ), #137, 'distance_accuracy_value', 'NONE');
#331 = DIRECTION ( 'NONE',  ( 0.0000000000000000000, 0.0000000000000000000, 1.000000000000000000 ) ) ;
#332 =( GEOMETRIC_REPRESENTATION_CONTEXT ( 3 ) GLOBAL_UNCERTAINTY_ASSIGNED_CONTEXT ( ( #164 ) ) GLOBAL_UNIT_ASSIGNED_CONTEXT ( ( #6, #232, #59 ) ) REPRESENTATION_CONTEXT ( 'NONE', 'WORKASPACE' ) );
#333 = SHAPE_DEFINITION_REPRESENTATION ( #312, #259 ) ;
#334 = ORIENTED_EDGE ( 'NONE', *, *, #247, .T. ) ;
#335 = STYLED_ITEM ( 'NONE', ( #267 ), #259 ) ;
#336 = CARTESIAN_POINT ( 'NONE',  ( 175.0000000000000300, 0.0000000000000000000, 16.99999999999999300 ) ) ;
#337 = VERTEX_POINT ( 'NONE', #369 ) ;
#338 = CIRCLE ( 'NONE', #295, 184.0699999999999900 ) ;
#339 = EDGE_CURVE ( 'NONE', #297, #297, #264, .T. ) ;
#340 = CARTESIAN_POINT ( 'NONE',  ( 0.0000000000000000000, 0.0000000000000000000, 16.24999999999999600 ) ) ;
#341 = DIRECTION ( 'NONE',  ( 0.0000000000000000000, 0.0000000000000000000, 1.000000000000000000 ) ) ;
#342 = AXIS2_PLACEMENT_3D ( 'NONE', #294, #178, #235 ) ;
#343 = VERTEX_POINT ( 'NONE', #161 ) ;
#344 = ORIENTED_EDGE ( 'NONE', *, *, #73, .T. ) ;
#345 = CARTESIAN_POINT ( 'NONE',  ( 175.0000000000000300, 0.0000000000000000000, 16.99999999999999600 ) ) ;
#346 = DIRECTION ( 'NONE',  ( 1.000000000000000000, 0.0000000000000000000, -0.0000000000000000000 ) ) ;
#347 = EDGE_LOOP ( 'NONE', ( #348 ) ) ;
#348 = ORIENTED_EDGE ( 'NONE', *, *, #108, .T. ) ;
#349 = DIRECTION ( 'NONE',  ( 1.000000000000000000, 0.0000000000000000000, 0.0000000000000000000 ) ) ;
#350 = AXIS2_PLACEMENT_3D ( 'NONE', #281, #124, #63 ) ;
#351 = DIRECTION ( 'NONE',  ( 1.000000000000000000, 0.0000000000000000000, 0.0000000000000000000 ) ) ;
#352 = CIRCLE ( 'NONE', #234, 182.5000000000000000 ) ;
#353 = ORIENTED_EDGE ( 'NONE', *, *, #16, .F. ) ;
#354 = ADVANCED_FACE ( 'NONE', ( #216, #92 ), #82, .T. ) ;
#355 = FILL_AREA_STYLE ('',( #3 ) ) ;
#356 = PRODUCT_DEFINITION_FORMATION_WITH_SPECIFIED_SOURCE ( 'ANY', '', #317, .NOT_KNOWN. ) ;
#357 = DIRECTION ( 'NONE',  ( 1.000000000000000000, 0.0000000000000000000, 0.0000000000000000000 ) ) ;
#358 = ADVANCED_FACE ( 'NONE', ( #192, #35 ), #154, .F. ) ;
#359 = FACE_BOUND ( 'NONE', #179, .T. ) ;
#360 = FACE_OUTER_BOUND ( 'NONE', #302, .T. ) ;
#361 = DIRECTION ( 'NONE',  ( 1.000000000000000000, 0.0000000000000000000, 0.0000000000000000000 ) ) ;
#362 = CIRCLE ( 'NONE', #208, 184.8199999999999900 ) ;
#363 = AXIS2_PLACEMENT_3D ( 'NONE', #104, #286, #351 ) ;
#364 = CARTESIAN_POINT ( 'NONE',  ( 0.0000000000000000000, 0.0000000000000000000, 16.99999999999999600 ) ) ;
#365 = FACE_OUTER_BOUND ( 'NONE', #115, .T. ) ;
#366 = FACE_BOUND ( 'NONE', #123, .T. ) ;
#367 = CARTESIAN_POINT ( 'NONE',  ( 184.8199999999999900, 0.0000000000000000000, 16.24999999999999600 ) ) ;
#368 = AXIS2_PLACEMENT_3D ( 'NONE', #138, #187, #188 ) ;
#369 = CARTESIAN_POINT ( 'NONE',  ( 182.5000000000000000, 0.0000000000000000000, 16.99999999999999600 ) ) ;
#370 = CIRCLE ( 'NONE', #67, 159.0900000000000000 ) ;
#371 = DIRECTION ( 'NONE',  ( 1.000000000000000000, 0.0000000000000000000, 0.0000000000000000000 ) ) ;
#372 = AXIS2_PLACEMENT_3D ( 'NONE', #90, #120, #113 ) ;
#373 = FILL_AREA_STYLE ('',( #77 ) ) ;
#374 = ORIENTED_EDGE ( 'NONE', *, *, #339, .T. ) ;
ENDSEC;
END-ISO-10303-21;
